ISO-10303-21;
HEADER;
FILE_DESCRIPTION (( 'STEP AP203' ),
    '1' );
FILE_NAME ('MHWP-25.4-488.STEP',
    '2020-12-22T09:26:12',
    ( '' ),
    ( '' ),
    'SwSTEP 2.0',
    'SolidWorks 2020',
    '' );
FILE_SCHEMA (( 'CONFIG_CONTROL_DESIGN' ));
ENDSEC;

DATA;
#1 = AXIS2_PLACEMENT_3D ( 'NONE', #52, #106, #147 ) ;
#2 = CC_DESIGN_APPROVAL ( #150, ( #135 ) ) ;
#3 = VERTEX_POINT ( 'NONE', #35 ) ;
#4 = CIRCLE ( 'NONE', #33, 12.69999999999999929 ) ;
#5 = SECURITY_CLASSIFICATION_LEVEL ( 'unclassified' ) ;
#6 = CARTESIAN_POINT ( 'NONE',  ( 0.000000000000000000, 1.555301434917138433E-15, -12.69999999999999929 ) ) ;
#7 = DATE_TIME_ROLE ( 'classification_date' ) ;
#8 = AXIS2_PLACEMENT_3D ( 'NONE', #120, #16, #40 ) ;
#9 = DIRECTION ( 'NONE',  ( -1.000000000000000000, -0.000000000000000000, -0.000000000000000000 ) ) ;
#10 = EDGE_CURVE ( 'NONE', #3, #138, #88, .T. ) ;
#11 = APPROVAL_ROLE ( '' ) ;
#12 = PRODUCT_RELATED_PRODUCT_CATEGORY ( 'detail', '', ( #122 ) ) ;
#13 = DIRECTION ( 'NONE',  ( 0.000000000000000000, 0.000000000000000000, 1.000000000000000000 ) ) ;
#14 = PERSON_AND_ORGANIZATION_ROLE ( 'creator' ) ;
#15 = AXIS2_PLACEMENT_3D ( 'NONE', #38, #31, #53 ) ;
#16 = DIRECTION ( 'NONE',  ( -1.000000000000000000, -0.000000000000000000, -0.000000000000000000 ) ) ;
#17 = VECTOR ( 'NONE', #48, 1000.000000000000000 ) ;
#18 = APPROVAL_PERSON_ORGANIZATION ( #47, #19, #11 ) ;
#19 = APPROVAL ( #61, 'UNSPECIFIED' ) ;
#20 = ORGANIZATION ( 'UNSPECIFIED', 'UNSPECIFIED', '' ) ;
#21 = EDGE_LOOP ( 'NONE', ( #27, #45, #166, #111 ) ) ;
#22 = CC_DESIGN_PERSON_AND_ORGANIZATION_ASSIGNMENT ( #92, #126, ( #135 ) ) ;
#23 = APPROVAL_STATUS ( 'not_yet_approved' ) ;
#24 = CC_DESIGN_APPROVAL ( #19, ( #98 ) ) ;
#25 = DATE_AND_TIME ( #112, #168 ) ;
#26 = ORIENTED_EDGE ( 'NONE', *, *, #62, .T. ) ;
#27 = ORIENTED_EDGE ( 'NONE', *, *, #67, .T. ) ;
#28 =( NAMED_UNIT ( * ) SI_UNIT ( $, .STERADIAN. ) SOLID_ANGLE_UNIT ( ) );
#29 =( NAMED_UNIT ( * ) PLANE_ANGLE_UNIT ( ) SI_UNIT ( $, .RADIAN. ) );
#30 = CALENDAR_DATE ( 2020, 22, 12 ) ;
#31 = DIRECTION ( 'NONE',  ( -1.000000000000000000, -0.000000000000000000, -0.000000000000000000 ) ) ;
#32 = ADVANCED_BREP_SHAPE_REPRESENTATION ( 'MHWP-25.4-488', ( #96, #86 ), #76 ) ;
#33 = AXIS2_PLACEMENT_3D ( 'NONE', #97, #159, #13 ) ;
#34 = ADVANCED_FACE ( 'NONE', ( #68 ), #73, .F. ) ;
#35 = CARTESIAN_POINT ( 'NONE',  ( 1.999999999999998224, 1.555301434917138433E-15, -12.69999999999999929 ) ) ;
#36 = CALENDAR_DATE ( 2020, 22, 12 ) ;
#37 = CC_DESIGN_PERSON_AND_ORGANIZATION_ASSIGNMENT ( #80, #114, ( #122 ) ) ;
#38 = CARTESIAN_POINT ( 'NONE',  ( 1.999999999999998224, 0.000000000000000000, 0.000000000000000000 ) ) ;
#39 = CALENDAR_DATE ( 2020, 22, 12 ) ;
#40 = DIRECTION ( 'NONE',  ( 0.000000000000000000, 0.000000000000000000, 1.000000000000000000 ) ) ;
#41 = DIRECTION ( 'NONE',  ( 0.000000000000000000, 0.000000000000000000, 1.000000000000000000 ) ) ;
#42 = DATE_AND_TIME ( #89, #149 ) ;
#43 = CC_DESIGN_APPROVAL ( #169, ( #148 ) ) ;
#44 = CC_DESIGN_DATE_AND_TIME_ASSIGNMENT ( #25, #7, ( #98 ) ) ;
#45 = ORIENTED_EDGE ( 'NONE', *, *, #10, .T. ) ;
#46 = DIRECTION ( 'NONE',  ( 1.000000000000000000, 0.000000000000000000, 0.000000000000000000 ) ) ;
#47 = PERSON_AND_ORGANIZATION ( #50, #20 ) ;
#48 = DIRECTION ( 'NONE',  ( -1.000000000000000000, -0.000000000000000000, -0.000000000000000000 ) ) ;
#49 = PERSON_AND_ORGANIZATION ( #50, #20 ) ;
#50 = PERSON ( 'UNSPECIFIED', 'UNSPECIFIED', 'UNSPECIFIED', ('UNSPECIFIED'), ('UNSPECIFIED'), ('UNSPECIFIED') ) ;
#51 = ORIENTED_EDGE ( 'NONE', *, *, #82, .T. ) ;
#52 = CARTESIAN_POINT ( 'NONE',  ( 1.999999999999998224, 0.000000000000000000, 0.000000000000000000 ) ) ;
#53 = DIRECTION ( 'NONE',  ( 0.000000000000000000, 0.000000000000000000, 1.000000000000000000 ) ) ;
#54 = CC_DESIGN_PERSON_AND_ORGANIZATION_ASSIGNMENT ( #153, #69, ( #135 ) ) ;
#55 = DATE_TIME_ROLE ( 'creation_date' ) ;
#56 = DIRECTION ( 'NONE',  ( -0.000000000000000000, 0.000000000000000000, 1.000000000000000000 ) ) ;
#57 = PERSON_AND_ORGANIZATION ( #50, #20 ) ;
#58 = LOCAL_TIME ( 17, 26, 12.00000000000000000, #174 ) ;
#59 = PERSON_AND_ORGANIZATION ( #50, #20 ) ;
#60 = LINE ( 'NONE', #113, #17 ) ;
#61 = APPROVAL_STATUS ( 'not_yet_approved' ) ;
#62 = EDGE_CURVE ( 'NONE', #70, #152, #60, .T. ) ;
#63 = AXIS2_PLACEMENT_3D ( 'NONE', #144, #9, #41 ) ;
#64 = APPROVAL_DATE_TIME ( #90, #19 ) ;
#65 = CYLINDRICAL_SURFACE ( 'NONE', #8, 12.69999999999999929 ) ;
#66 = DATE_AND_TIME ( #39, #71 ) ;
#67 = EDGE_CURVE ( 'NONE', #70, #3, #84, .T. ) ;
#68 = FACE_OUTER_BOUND ( 'NONE', #156, .T. ) ;
#69 = PERSON_AND_ORGANIZATION_ROLE ( 'creator' ) ;
#70 = VERTEX_POINT ( 'NONE', #94 ) ;
#71 = LOCAL_TIME ( 17, 26, 12.00000000000000000, #95 ) ;
#72 = APPROVAL_ROLE ( '' ) ;
#73 = PLANE ( 'NONE',  #91 ) ;
#74 = DIRECTION ( 'NONE',  ( -1.000000000000000000, -0.000000000000000000, -0.000000000000000000 ) ) ;
#75 = DIRECTION ( 'NONE',  ( 0.000000000000000000, 0.000000000000000000, 1.000000000000000000 ) ) ;
#76 =( GEOMETRIC_REPRESENTATION_CONTEXT ( 3 ) GLOBAL_UNCERTAINTY_ASSIGNED_CONTEXT ( ( #87 ) ) GLOBAL_UNIT_ASSIGNED_CONTEXT ( ( #109, #29, #28 ) ) REPRESENTATION_CONTEXT ( 'NONE', 'WORKASPACE' ) );
#77 = CYLINDRICAL_SURFACE ( 'NONE', #107, 12.69999999999999929 ) ;
#78 = PERSON_AND_ORGANIZATION_ROLE ( 'classification_officer' ) ;
#79 = FACE_OUTER_BOUND ( 'NONE', #151, .T. ) ;
#80 = PERSON_AND_ORGANIZATION ( #50, #20 ) ;
#81 = DIRECTION ( 'NONE',  ( -1.000000000000000000, -0.000000000000000000, -0.000000000000000000 ) ) ;
#82 = EDGE_CURVE ( 'NONE', #3, #70, #154, .T. ) ;
#83 = CC_DESIGN_DATE_AND_TIME_ASSIGNMENT ( #66, #55, ( #148 ) ) ;
#84 = CIRCLE ( 'NONE', #15, 12.69999999999999929 ) ;
#85 = AXIS2_PLACEMENT_3D ( 'NONE', #116, #132, #56 ) ;
#86 = AXIS2_PLACEMENT_3D ( 'NONE', #118, #146, #167 ) ;
#87 = UNCERTAINTY_MEASURE_WITH_UNIT (LENGTH_MEASURE( 1.000000000000000082E-05 ), #109, 'distance_accuracy_value', 'NONE');
#88 = LINE ( 'NONE', #6, #140 ) ;
#89 = CALENDAR_DATE ( 2020, 22, 12 ) ;
#90 = DATE_AND_TIME ( #36, #163 ) ;
#91 = AXIS2_PLACEMENT_3D ( 'NONE', #164, #46, #101 ) ;
#92 = PERSON_AND_ORGANIZATION ( #50, #20 ) ;
#93 = EDGE_LOOP ( 'NONE', ( #100, #142 ) ) ;
#94 = CARTESIAN_POINT ( 'NONE',  ( 1.999999999999998224, 0.000000000000000000, 12.69999999999999929 ) ) ;
#95 = COORDINATED_UNIVERSAL_TIME_OFFSET ( 8, 0, .AHEAD. ) ;
#96 = MANIFOLD_SOLID_BREP ( 'Ðý×', #161 ) ;
#97 = CARTESIAN_POINT ( 'NONE',  ( -1.187907395172932594E-15, 0.000000000000000000, 0.000000000000000000 ) ) ;
#98 = SECURITY_CLASSIFICATION ( '', '', #5 ) ;
#99 = ADVANCED_FACE ( 'NONE', ( #79 ), #77, .T. ) ;
#100 = ORIENTED_EDGE ( 'NONE', *, *, #67, .F. ) ;
#101 = DIRECTION ( 'NONE',  ( 0.000000000000000000, 0.000000000000000000, -1.000000000000000000 ) ) ;
#102 = COORDINATED_UNIVERSAL_TIME_OFFSET ( 8, 0, .AHEAD. ) ;
#103 = ORIENTED_EDGE ( 'NONE', *, *, #110, .T. ) ;
#104 = PERSON_AND_ORGANIZATION ( #50, #20 ) ;
#105 = CARTESIAN_POINT ( 'NONE',  ( -1.187907395172932594E-15, 1.555301434917138433E-15, -12.69999999999999929 ) ) ;
#106 = DIRECTION ( 'NONE',  ( -1.000000000000000000, -0.000000000000000000, -0.000000000000000000 ) ) ;
#107 = AXIS2_PLACEMENT_3D ( 'NONE', #134, #81, #75 ) ;
#108 = COORDINATED_UNIVERSAL_TIME_OFFSET ( 8, 0, .AHEAD. ) ;
#109 =( LENGTH_UNIT ( ) NAMED_UNIT ( * ) SI_UNIT ( .MILLI., .METRE. ) );
#110 = EDGE_CURVE ( 'NONE', #152, #138, #4, .T. ) ;
#111 = ORIENTED_EDGE ( 'NONE', *, *, #62, .F. ) ;
#112 = CALENDAR_DATE ( 2020, 22, 12 ) ;
#113 = CARTESIAN_POINT ( 'NONE',  ( 0.000000000000000000, 0.000000000000000000, 12.69999999999999929 ) ) ;
#114 = PERSON_AND_ORGANIZATION_ROLE ( 'design_owner' ) ;
#115 = CIRCLE ( 'NONE', #63, 12.69999999999999929 ) ;
#116 = CARTESIAN_POINT ( 'NONE',  ( 1.999999999999999112, 12.69999999999999929, 0.000000000000000000 ) ) ;
#117 = DESIGN_CONTEXT ( 'detailed design', #137, 'design' ) ;
#118 = CARTESIAN_POINT ( 'NONE',  ( 0.000000000000000000, 0.000000000000000000, 0.000000000000000000 ) ) ;
#119 = SHAPE_DEFINITION_REPRESENTATION ( #123, #32 ) ;
#120 = CARTESIAN_POINT ( 'NONE',  ( 0.000000000000000000, 0.000000000000000000, 0.000000000000000000 ) ) ;
#121 = DATE_AND_TIME ( #30, #58 ) ;
#122 = PRODUCT ( 'MHWP-25.4-488', 'MHWP-25.4-488', '', ( #129 ) ) ;
#123 = PRODUCT_DEFINITION_SHAPE ( 'NONE', 'NONE',  #148 ) ;
#124 = ORIENTED_EDGE ( 'NONE', *, *, #10, .F. ) ;
#125 = APPLICATION_CONTEXT ( 'configuration controlled 3d designs of mechanical parts and assemblies' ) ;
#126 = PERSON_AND_ORGANIZATION_ROLE ( 'design_supplier' ) ;
#127 = APPROVAL_PERSON_ORGANIZATION ( #49, #169, #165 ) ;
#128 = ORIENTED_EDGE ( 'NONE', *, *, #130, .F. ) ;
#129 = MECHANICAL_CONTEXT ( 'NONE', #125, 'mechanical' ) ;
#130 = EDGE_CURVE ( 'NONE', #138, #152, #115, .T. ) ;
#131 = CC_DESIGN_SECURITY_CLASSIFICATION ( #98, ( #135 ) ) ;
#132 = DIRECTION ( 'NONE',  ( -1.000000000000000000, 0.000000000000000000, -0.000000000000000000 ) ) ;
#133 = COORDINATED_UNIVERSAL_TIME_OFFSET ( 8, 0, .AHEAD. ) ;
#134 = CARTESIAN_POINT ( 'NONE',  ( 0.000000000000000000, 0.000000000000000000, 0.000000000000000000 ) ) ;
#135 = PRODUCT_DEFINITION_FORMATION_WITH_SPECIFIED_SOURCE ( 'ANY', '', #122, .NOT_KNOWN. ) ;
#136 = CC_DESIGN_PERSON_AND_ORGANIZATION_ASSIGNMENT ( #104, #14, ( #148 ) ) ;
#137 = APPLICATION_CONTEXT ( 'configuration controlled 3d designs of mechanical parts and assemblies' ) ;
#138 = VERTEX_POINT ( 'NONE', #105 ) ;
#139 = APPROVAL_STATUS ( 'not_yet_approved' ) ;
#140 = VECTOR ( 'NONE', #74, 1000.000000000000000 ) ;
#141 = ORIENTED_EDGE ( 'NONE', *, *, #130, .T. ) ;
#142 = ORIENTED_EDGE ( 'NONE', *, *, #82, .F. ) ;
#143 = ADVANCED_FACE ( 'NONE', ( #158 ), #65, .T. ) ;
#144 = CARTESIAN_POINT ( 'NONE',  ( -1.187907395172932594E-15, 0.000000000000000000, 0.000000000000000000 ) ) ;
#145 = APPLICATION_PROTOCOL_DEFINITION ( 'international standard', 'config_control_design', 1994, #125 ) ;
#146 = DIRECTION ( 'NONE',  ( 0.000000000000000000, 0.000000000000000000, 1.000000000000000000 ) ) ;
#147 = DIRECTION ( 'NONE',  ( 0.000000000000000000, 0.000000000000000000, 1.000000000000000000 ) ) ;
#148 = PRODUCT_DEFINITION ( 'UNKNOWN', '', #135, #117 ) ;
#149 = LOCAL_TIME ( 17, 26, 12.00000000000000000, #108 ) ;
#150 = APPROVAL ( #23, 'UNSPECIFIED' ) ;
#151 = EDGE_LOOP ( 'NONE', ( #124, #51, #26, #128 ) ) ;
#152 = VERTEX_POINT ( 'NONE', #170 ) ;
#153 = PERSON_AND_ORGANIZATION ( #50, #20 ) ;
#154 = CIRCLE ( 'NONE', #1, 12.69999999999999929 ) ;
#155 = APPROVAL_DATE_TIME ( #42, #169 ) ;
#156 = EDGE_LOOP ( 'NONE', ( #103, #141 ) ) ;
#157 = FACE_OUTER_BOUND ( 'NONE', #93, .T. ) ;
#158 = FACE_OUTER_BOUND ( 'NONE', #21, .T. ) ;
#159 = DIRECTION ( 'NONE',  ( -1.000000000000000000, -0.000000000000000000, -0.000000000000000000 ) ) ;
#160 = APPLICATION_PROTOCOL_DEFINITION ( 'international standard', 'config_control_design', 1994, #137 ) ;
#161 = CLOSED_SHELL ( 'NONE', ( #143, #99, #175, #34 ) ) ;
#162 = APPROVAL_PERSON_ORGANIZATION ( #57, #150, #72 ) ;
#163 = LOCAL_TIME ( 17, 26, 12.00000000000000000, #102 ) ;
#164 = CARTESIAN_POINT ( 'NONE',  ( -5.939536975864662969E-16, 12.69999999999999929, 0.000000000000000000 ) ) ;
#165 = APPROVAL_ROLE ( '' ) ;
#166 = ORIENTED_EDGE ( 'NONE', *, *, #110, .F. ) ;
#167 = DIRECTION ( 'NONE',  ( 1.000000000000000000, 0.000000000000000000, 0.000000000000000000 ) ) ;
#168 = LOCAL_TIME ( 17, 26, 12.00000000000000000, #133 ) ;
#169 = APPROVAL ( #139, 'UNSPECIFIED' ) ;
#170 = CARTESIAN_POINT ( 'NONE',  ( -1.187907395172932594E-15, 0.000000000000000000, 12.69999999999999929 ) ) ;
#171 = CC_DESIGN_PERSON_AND_ORGANIZATION_ASSIGNMENT ( #59, #78, ( #98 ) ) ;
#172 = APPROVAL_DATE_TIME ( #121, #150 ) ;
#173 = PLANE ( 'NONE',  #85 ) ;
#174 = COORDINATED_UNIVERSAL_TIME_OFFSET ( 8, 0, .AHEAD. ) ;
#175 = ADVANCED_FACE ( 'NONE', ( #157 ), #173, .F. ) ;
ENDSEC;
END-ISO-10303-21;
